ONDE ESTOU | Padre zezinho | O amor e a resposta


O amor e a resposta

Padre zezinho


Intro: Dm  Bb  Dm


E|-------------------8/10-10-10-10---------------|
B|------------5h6-6/8--------------8/10-10-10----|
G|---------5h7-----------------------------------|
D|------5h7--------------------------------------|
A|-5-7h8-----------------------------------------|
E|-----------------------------------------------|


Dm Bb C Dm


E|---5h6p5p6p5p6p5...-----------------------|
B|-8-----------------8-6-5------------------|
G|-------------------------5-7--------------|
D|-----------------------------8-7-5--------|
A|-----------------------------------8-7-5~-|
E|------------------------------------------|


 Dm               Gm

 E assim foi que aprendi E|---3-5-6-------|
                        B|---------------|
                        G|-/3-3-3--------|


                 Dm
Olhando ao meu redor E|-------------|
                     B|---6-8-10----|
                     G|-/7-7-7------|


Dm                              Gm
Que o mundo é muito triste sem amor

 A7                                 Dm
Que a vida não tem graça se eu não amo.E|-10-10-12-13---|
                                       B|-10-10-10-10---|


D7                 Gm
Nem tudo o que eu sonhar será como eu sonhei
                  Dm
Porém, se eu não tentar jamais eu saberei

             A7
O gosto de viverE|-5-6-5--------------------------|
                B|---------8-6-5------------------|
                G|----------------5-7-------------|
                D|--------------------8-7-5-------|
                A|-------------------------8-7-5~-|
                E|--------------------------------|


              Dm
O gosto de esperança!E|-10-12-13--------------------------|
                     B|-----------10-11-13----------------|
                     G|--------------------10-12/14-------|
                     D|-----------------------------12----|
                     A|-----------------------------------|
                     E|-----------------------------------|


Dm               Gm
E assim foi que aprendi
             Dm
Na hora de sofrer
                          A
Que nada faz sentido sem perdão

 A7                           Dm
Que se eu não perdoar eu me enveneno.E|--10-10-12-13-10-|
                                     B|-10--10-10-10-10-|


D7            Gm                 C         C7
E, se eu viver querendo eterna compreensão

              F    A        A7   Dm
Jamais aprenderei do amor esta lição E|-5-6-5--------------------------|
                                     B|---------8-6-5------------------|
                                     G|----------------5-7-------------|
                                     D|--------------------8-7-5-------|
                                     A|-------------------------8-7-5~-|
                                     E|--------------------------------|


 Dm             A     A7
O amor é bom demais     E|-8------------------------|
                        B|--11-10-8-----8-----------|
                        G|----------10-9---10-9-7-5-|

              

                 Dm
Porém às vezes dói!E|---12-13-15-13-12--13-----|
                   B|-15--------------15-------|
                   G|----------------------14--|

 Dm               Gm

 E assim foi que aprendi E|---3-5-6-------|
                        B|---------------|
                        G|-/3-3-3--------|


                Dm
Olhando aquela cruz E|-------------|
                    B|---6-8-10----|
                    G|-/7-7-7------|

                         A
Olhando aqueles olhos a sofrer
           A7               Dm
E aquele coração sangrando aberto: 
Dm              Gm
Não haverá mais pão se o trigo não morrer
           Dm
Não há libertação sem risco de perder

 A              A7
O amor que é prazer E|-10-12-13--------------------------|
                    B|-----------10-11-13----------------|

                  Dm
Também tem seus tormentos!

E assim foi que aprendi olhando para o céu
Que o mundo quase nunca satisfaz
Sem Deus nenhum sistema traz a paz.
Eu sei que a religião também pode enganar
Não há libertação se eu não me questionar

A vida é uma questão
O amor é uma resposta...