ONDE ESTOU | Padre zezinho | Em sintonia


Em sintonia

Padre zezinho


Álbum: Um Jovem Galileu 1


INTRODUÇÃO: 4 Vezes antes entrar o verso.


e|--------------------------|
B|---------1-----3h5p3/1-1--|
G|-----0-----0------------0-|
D|---2---2-----2------------|
A|-3------------------------|
E|--------------------------|


REFRÃO


   C         C2 C4 C        C         C2 C4 C  Guitarra II em cima da melodia de voz  
e|------------------------|-------------------||-------------------|-------------------|
B|-------8-8----10-8--8-8-|-------8-8----10-8-||-------------------|-------------------|
G|--9-10-9-9-10-10-9---9--|--9-10-9-9-10-10-9-||-------9-9----10-9~|-------9-9----10-9~|
D|-10-12-----12-----------|-10-12-----12------||-10-12-----12------|-10-12-----12------|
A|------------------------|-------------------||-------------------|-------------------|
E|------------------------|-------------------||-------------------|-------------------|


   F            C      G          C   guitarra II
e|------------------------|----------||-----------|----------------|
B|-10--12-13-12-8----8----|----------||-----12-13~|-13-13-12-10-12-|
G|-10--12-14-12-9--9-9-10-|-10----9--||-/14~------|----------------|
D|----------------10---12-|----12-10-||-----------|----------------|
A|------------------------|----------||-----------|----------------|
E|------------------------|----------||-----------|----------------|


   C         C2 C4 C        C         C2 C4 C  Guitarra II 
e|------------------------|-------------------||-------------------|-------------------|
B|-------8-8----10-8--8-8-|-------8-8----10-8-||-------------------|-------------------|
G|--9-10-9-9-10-10-9---9--|--9-10-9-9-10-10-9-||-------9-9----10-9~|-------9-9----10-9~|
D|-10-12-----12-----------|-10-12-----12------||-10-12-----12------|-10-12-----12------|
A|------------------------|-------------------||-------------------|-------------------|
E|------------------------|-------------------||-------------------|-------------------|


   F            C      G          C                guitarra II (-----A|------) 
e|------------------------|-----------------------||-----------|------------|
B|-10--12-13-12-8----8----|-----------------------||-----12-13~|------------|
G|-10--12-14-12-9--9-9-10-|-10----9--9--9h10p9--9-||-/14~------|---10~----9~|
D|----------------10---12-|----12-10--10------10--||-----------|------------|
A|------------------------|-----------------------||-----------|------------|
E|------------------------|-----------------------||-----------|------------|


Substituir A por B no final do último refrão, ou seja, no final da música.
 (---------B|---------)
e|-------8---8---8-0-|
B|---5-6---8---6---1-|
G|-5---------------0-|
D|-------------------|
A|-------------------|
E|-------------------|


VERSO
                  (ou Dm7)

   C  C4 C/G    F     Dm   G     F       C           G     C
e|----------------------|---------------------------------|
B|-------------10-12-13-|-12-10-13/-8---8/10/8-6--5-8-8-8-|
G|--9-10-12-12-10-12-14-|-12-10-14/-9---9/10/9-7--5-5--5--|
D|-10-10-10-10----------|---------------------------5-----|
A|----------------------|---------------------------------|
E|----------------------|---------------------------------|


   C  C4 C/G    F     Dm   G     F       C           G     C
e|----------------------|-----------------------------|
B|-------------10-12-13-|-12-10-13/-8---8/10/8-6--5-8-|
G|--9-10-12-12-10-12-14-|-12-10-14/-9---9/10/9-7--5-5-|
D|-10-10-10-10----------|---------------------------5-|
A|----------------------|-----------------------------|
E|----------------------|-----------------------------|


1º REFRÃO apenas com dedilhado em cima dos acordes

C         C2 C4 C  
Meu espírito está,
C         C2 C4 C
meu espírito está
F       C           G    C
em sintonia com meu Deus.
C         C2 C4 C
Meu espírito está,
C         C2 C4 C
meu espírito está
F       C         G    C
em sintonia com o Pai.

1º VERSO

C C4 C/G  F     Dm       G* /F   C          G    C      (OBS: /F -> SLIDE de G para F)
O Es-pírito de Deus fez moradia no meu coração,
C C4 C/G     F    Dm       G*/F    C           G    C
sua  paz me envolveu e de alegria fiz esta canção.

2º REFRÃO

C         C2 C4 C
Meu espírito está,
C         C2 C4 C
meu espírito está
F       C           G    C
em sintonia com meu Deus.
C         C2 C4 C
Meu espírito está,
C         C2 C4 C
meu espírito está
F       C         G    C
em sintonia com o Pai.

2º VERSO

C  C4 C/G  F     Dm      G*  /F      C               G    C
No Es-pírito de Deus eu repousei, fazendo o que Ele diz
C C4  C/G      F     Dm    G*      /F       C            G    C
e meu Deus me respondeu e deu-me a paz que faz eu ser feliz.

3º REFRÃO (com o final do último refrão)

C         C2 C4 C
Meu espírito está,
C         C2 C4 C
meu espírito está
F       C           G    C
em sintonia com meu Deus.
C         C2 C4 C
Meu espírito está,
C         C2 C4 C
meu espírito está
F       C         G    C
em sintonia com o Pai.