Saudade Cifra - Nelsinho Correa

Nelsinho Correa

Intro: Riff 1


Riff 1

                       A                 C#m            B9     G#m      A                     F#m
|---------------0-------------------------------4--------------4--------------------------------------0---|
|---------0--------0--2------2-----2--4--5----5-----5--4----4--4----4--2------0-2-0-----------------0-----|
|------1--------------2----2-------2--4--4--4-----4----4--4----4--4----2----2--------2--1--2------2-------|
|---2-----------------2--2-------2-------6-----------------------------2--2---------------------4---------|
|----------------------------------------4-------------2---------------0----------------------4-----------|
|-0----------4-------------------------------------------------4------------------------------------------|


    B                   (1ºX)            B  (2ºX)
|--2------2---|--------------------|----2--------|
|--4----4-----|--5--5--4--2--------|----4--------|
|--4--4-------|--------------4--2--|----4--------|
|-------------|--------------------|-------------|
|--2----------|--------------------|----2--------|
|-------------|--------------------|-------------|



E     E/G#   A             C#m
Só se tem saudade do que é bom,
                 B       E/G#        A
Se chorei de saudade não foi por fraqueza,
F#m             B7
Foi porque amei.(BIS)

E       B/D# C#m             C#m/B
E se eu amei, quem vai me condenar?
A        E/G# F#m7              B9  A B9
Se eu chorei, quem vai me criticar?
E       B/D# C#m             C#m/B
E se eu amei, quem vai me condenar?
A        E/G# F#m7              B9
Se eu chorei, quem vai me criticar?

E           C#m7              A9
Só quem não amou, quem não chorou,
             B9
Quem se esqueceu que é um ser humano,
E         C#m7             A
Quem não viveu, quem não sofreu,
         E/G#   F#m7             B9           A9  B9
Só quem já morreu... e se esqueceu de deitar



Contador de Cliques

Os mais da semana Cantores Católicas