Renda se Cifra - Ministerio Adoracao Vida

Ministerio Adoracao Vida

             Bm    G        A
Reina o Senhor!       Toda a terra verá
          Em7  G                Bm         A
Ele voltará         com glória, força e poder
            Em7  G          Bm   A
Povos e nações,      todos afluirão
              Em    D/F#  G                Bm       A
Ao ouvirem o som                 dos anjos anunciando
      Em7          G                Asus4  A
E então diante do Rei dos reis tremerão

D             A/C#      Bm     F#m        G
Glória e majestade ao Rei,     Cristo Jesus
D/F#     Em       C       D
Cordeiro Santo, Raiz de Davi
            A/C#     Bm     F#m        G
Que amou o mundo e abriu as portas do céu
D/F#      Em       A           G
A todo aquele que Ele     redimir

REPETE TODA A MUSICA

A  Bm                   F#m
     Renda-se! Ainda há tempo de retornar
Em            F#m
Renda-se! Vida nova receberá
G             F#m           Em7      F#
Renda-se! Abandone-se sem reservas

Bm              A9
Renda-se! O Senhor disse e cumprirá
Em7            F#m
Renda-se! Toda lágrima enxugará
G          F#m      Em7       G             F#
Renda-se àquele que era, que é e que há de vir!


 Solo:  D  A/C#  :  Bm   A  :  G  Em  :   F#   :  Bm  :  D  :  Em  Bm  :  G   : Em  :  F#  :


E|----------------------------------------------------------------------------|
B|----------------------------------------------------------10----------------|
G|-----7~-------7-9br-7~~----7/6-7/9----6h7---7-9br-9p7h9b------9b~~----------|
D|-7h9------7h9-----------9----------9------5---------------------------------|


E|-------------|----------------------------------------12-14-15--------------|
B|-12-12-10-12-|-------------------------17b-17-15----------------------------|
G|-------------|-----------------16-18-19---------14~~------------------------|
D|-------------|---------14-16-17---------------------------------------------|
A|-------------|-14-16-17-----------------------------------------------------|


E|-15p14p12h14-15/17----------------12-14-12~~-|-15-14-12---------------------|
B|--------------------12~~--12-14-15-----------|------------------------------|
G|---------------------------------------------|------------------------------|
D|---------------------------------------------|------------------------------|


E|----------------------------------------------------------------------------|
B|-15-14-14h15p14-12-12h14p12--11-11h12p11--8-8h11p8-8-7~~--------------------|
G|----------------------------------------------------------------------------|



Repete a Música

D             A/C#      Bm     F#m        G
Glória e majestade ao Rei,     Cristo Jesus
D/F#     Em       C       D
Cordeiro Santo, Raiz de Davi
            A/C#     Bm     F#m        G
Que amou o mundo e abriu as portas do céu
D/F#      Em       A          D
A todo aquele que Ele     redimir

( G Bm A  Em Bm A )

Em  G       Bm
            Renda-se



Contador de Cliques

Os mais da semana Cantores Católicas