Cumpra se senhor Cifra - Kelly Patricia

Kelly Patricia


Introdução: Em7  D  Am  Em7
E|-7-7-7-7-5-7-7-7-7-5---------------------------------------------5-7-12----------:
B|--------------------------8-7-5-----------5-7-7-7/8-7-5---5-7-8--------12-10----:
G|---------------------------------7-4-5-7----------------------------------------------:


E|--------------------------------------------------------------------------------:
B|----10-12-10-----------------------10-12-13-12-10-12-10---------------:
G|-12------------12-11-12-11-12----------------------------12-11-9-------:


Em7			C7+/9 
Cumpra-se em mim, Senhor, 
 Am9			Em7 
Vossa vontade de todos os modos e maneiras 
    Bm7			  C7+/9	    Em7 
Se Vós, Senhor Deus, quiserdes, quiserdes... 
		D/F#	      C7+/9 
Se me quiserdes enviar sofrimento 
	  Em7		      C7+/9 
Dá-me forças pra suportar 
   Em7		C7+/9 
E venham, aqui estou 
		     Em7 
Não afastarei o rosto, oh meu Deus 
	    C7+/9     Em7 
Dá-me somente coragem 
	B	    C9 
E disponde de mim, 
		   D 
De minha vontade 
C9		      D	      Em7  
Como de coisa Vossa, Vossa. 


G D C Em7
E|-10-7s8-----7------7-----------------------10-7s8-7----:
B|----------10----10----10-8-7--------7-8--------------8-:
G|---------------------------------7-10----------------------:

Repete tudo
Final:

D  Am7  Em7
E|-7-5------------------------------------------4-5-7-12------------------------------------------:
B|------8-7-5-4--------5-7-7-7s8s7-7-5-7-------------12-10------10-12-10-----------------:
G|----------------4-5-7--------------------------------------------12--------------12-11-12-9--:



Contador de Cliques

Os mais da semana Cantores Católicas