O primeiro olhar Cifra - Anjos de Resgate

Anjos de Resgate

Intro: D/E  A7+  E/F#  F#m  Bm  Dm6  E

        A7+                       Dm6/A
Quando nós trocamos o primeiro olhar
      A7+                     Dm6/A
O meu coração pediu pra se apaixonar
         A7+                              Dm6/A
Igual ao sol que nasce e só pertence ao dia
            A7+                      Dm6/A
Quando nasci o meu amor já te pertencia
        A7+                     Dm6/A
Se não existisses eu te inventaria
     F#m7                       Fb5-
As estrelas se eu pudesse te daria
     A/C#                           Dm6
Prometi a Deus que ao céu vou te levar
          A/E                                E
E vou gritar pro mundo ouvir que sempre te amei e vou te amar
          A                          E/G#         F#m
Foi no primeiro olhar que eu te consagrei o meu amor
   G/A          D7+       D/C
E nada vai nos separar na alegria ou na dor,
        A/C#                      Dm6
O mundo não verá o nosso amor se acabar!
     A/E                          Dm6/E
Logo no primeiro olhar Deus nos casou
       A/E                             Dm6/D    D/E            A
E escreveu seu nome e o meu no azul do céu! Pra sempre vou te amar


E|-------------------------------------------------------------------|
B|-------------------------------------------------------------------|
G|--------7-7-7-7-7-?12-12 > 7-7-5/7/5------------------------------|
D|---7-9-------------------------------------------------------------|
A|-------------------------------------------------------------------|
E|-------------------------------------------------------------------|


E|----------------------------------------------------------------------------------------|
B|-----------------------------------------10-10-10-8/10/8-10-6---------------------------|
G|------7-7-7/9-7/9/7---7-7->12-12-----------------------------------7-7-7-7-7------------|
D|-7-9------------------------------------------------------------------------------------|
A|----------------------------------------------------------------------------------------|
E|----------------------------------------------------------------------------------------|


E|---------------------7/10-9-6-3/5-|
B|----------------------------------|
G|----7-7/8/7-5---------------------|
D|----------------------------------|
A|----------------------------------|
E|----------------------------------|



Contador de Cliques

Os mais da semana Cantores Católicas