Doce jesus Cifra - Adriana

Adriana

Intro: D  G/B  A/C#  D  Bm  E  G


E|--------------------------------------------------------------|
B|--7-7-7-7-7--8--10-10--12-8-7--5-5-5-5-5--7-8-8-7-5-7--7-5-3--|
G|--------------------------------------------------------------|
D|--------------------------------------------------------------|
A|--------------------------------------------------------------|
E|--------------------------------------------------------------|


E|------------2------------------------------------|
B|--3-3-3--5-----5------------2-3----3--2h3--------|
G|-------------------4-4---4------------------4-2--|
D|-------------------------------------------------|
A|-------------------------------------------------|
E|-------------------------------------------------|


D               G/B
Minha vida se modificou
A/C#               D
Quando teu nome eu invoquei

D                G/B
Como brisa sobre mim pousou
A/C#            D
Teu amor e tua luz

D               G
Pude sentir tua doce Paz
Gm             D/A   A     G/B   A/C#
Que me refaz e me seduz


D           A/C#
Estenda tua mão
  G/B       G      A/G  D/F#
Assim digo adeus a solidão
      G               A/C#
Por amor coloco minha vida
        Em     A
Sobre o teu altar
 G/A      D
Ó Doce Jesus

Ponte: G/B  A/C#

D               G/B
Minha vida se modificou
A/C#               D
Quando teu nome eu invoquei

D                G/B
Como brisa sobre mim pousou
A/C#            D
Teu amor e tua luz

D               G
Pude sentir tua doce Paz
Gm             D/A   A     G/B   A/C#
Que me refaz e me seduz

D           A/C#
Estenda tua mão
  G/B       G      A/G  D/F#
Assim digo adeus a solidão
      G               A/C#
Por amor coloco minha vida
        Em     A
Sobre o teu altar
 G/A      D
Ó Doce Jesus



Contador de Cliques

Os mais da semana Cantores Católicas